ISO-10303-21;
HEADER;
FILE_DESCRIPTION (( 'STEP AP203' ),
    '1' );
FILE_NAME ('QM-AAHWP-20-900-2100-M.STEP',
    '2021-01-05T02:33:56',
    ( '' ),
    ( '' ),
    'SwSTEP 2.0',
    'SolidWorks 2020',
    '' );
FILE_SCHEMA (( 'CONFIG_CONTROL_DESIGN' ));
ENDSEC;

DATA;
#1 = CYLINDRICAL_SURFACE ( 'NONE', #175, 12.69999999999999929 ) ;
#2 = DIRECTION ( 'NONE',  ( 0.000000000000000000, 0.000000000000000000, 1.000000000000000000 ) ) ;
#3 = DIRECTION ( 'NONE',  ( 0.000000000000000000, 0.000000000000000000, 1.000000000000000000 ) ) ;
#4 = CYLINDRICAL_SURFACE ( 'NONE', #276, 10.00000000000000000 ) ;
#5 = APPROVAL_STATUS ( 'not_yet_approved' ) ;
#6 = CIRCLE ( 'NONE', #36, 12.69999999999999929 ) ;
#7 = ADVANCED_FACE ( 'NONE', ( #43 ), #321, .F. ) ;
#8 = APPROVAL_DATE_TIME ( #208, #115 ) ;
#9 = EDGE_CURVE ( 'NONE', #116, #215, #301, .T. ) ;
#10 = CALENDAR_DATE ( 2021, 5, 1 ) ;
#11 = ORIENTED_EDGE ( 'NONE', *, *, #163, .T. ) ;
#12 = CALENDAR_DATE ( 2021, 5, 1 ) ;
#13 = VERTEX_POINT ( 'NONE', #85 ) ;
#14 = EDGE_LOOP ( 'NONE', ( #48, #212 ) ) ;
#15 = AXIS2_PLACEMENT_3D ( 'NONE', #21, #120, #18 ) ;
#16 = VERTEX_POINT ( 'NONE', #50 ) ;
#17 = AXIS2_PLACEMENT_3D ( 'NONE', #228, #201, #156 ) ;
#18 = DIRECTION ( 'NONE',  ( -0.000000000000000000, 0.000000000000000000, 1.000000000000000000 ) ) ;
#19 = DIRECTION ( 'NONE',  ( -1.000000000000000000, -0.000000000000000000, -0.000000000000000000 ) ) ;
#20 = DIRECTION ( 'NONE',  ( 0.000000000000000000, 0.000000000000000000, -1.000000000000000000 ) ) ;
#21 = CARTESIAN_POINT ( 'NONE',  ( 0.5000000000000006661, 10.00000000000000000, 0.000000000000000000 ) ) ;
#22 = APPROVAL ( #58, 'UNSPECIFIED' ) ;
#23 = AXIS2_PLACEMENT_3D ( 'NONE', #252, #275, #304 ) ;
#24 = CARTESIAN_POINT ( 'NONE',  ( -3.000000000000000000, 10.00000000000000000, 0.000000000000000000 ) ) ;
#25 = DIRECTION ( 'NONE',  ( -1.000000000000000000, -0.000000000000000000, -0.000000000000000000 ) ) ;
#26 = CC_DESIGN_DATE_AND_TIME_ASSIGNMENT ( #309, #162, ( #108 ) ) ;
#27 = CARTESIAN_POINT ( 'NONE',  ( -1.614212418857619014, 1.555301434917138433E-15, -12.69999999999999929 ) ) ;
#28 = AXIS2_PLACEMENT_3D ( 'NONE', #141, #183, #264 ) ;
#29 = DIRECTION ( 'NONE',  ( -1.000000000000000000, -0.000000000000000000, -0.000000000000000000 ) ) ;
#30 = PLANE ( 'NONE',  #121 ) ;
#31 = DIRECTION ( 'NONE',  ( 0.000000000000000000, 0.000000000000000000, 1.000000000000000000 ) ) ;
#32 = PLANE ( 'NONE',  #23 ) ;
#33 = MECHANICAL_CONTEXT ( 'NONE', #220, 'mechanical' ) ;
#34 = CARTESIAN_POINT ( 'NONE',  ( -3.000000000000000000, 0.000000000000000000, 0.000000000000000000 ) ) ;
#35 = PERSON_AND_ORGANIZATION_ROLE ( 'creator' ) ;
#36 = AXIS2_PLACEMENT_3D ( 'NONE', #34, #29, #31 ) ;
#37 = COORDINATED_UNIVERSAL_TIME_OFFSET ( 8, 0, .AHEAD. ) ;
#38 = ORIENTED_EDGE ( 'NONE', *, *, #274, .T. ) ;
#39 = EDGE_LOOP ( 'NONE', ( #316, #269, #83, #109 ) ) ;
#40 = AXIS2_PLACEMENT_3D ( 'NONE', #94, #223, #154 ) ;
#41 =( GEOMETRIC_REPRESENTATION_CONTEXT ( 3 ) GLOBAL_UNCERTAINTY_ASSIGNED_CONTEXT ( ( #165 ) ) GLOBAL_UNIT_ASSIGNED_CONTEXT ( ( #130, #105, #311 ) ) REPRESENTATION_CONTEXT ( 'NONE', 'WORKASPACE' ) );
#42 = ORIENTED_EDGE ( 'NONE', *, *, #329, .T. ) ;
#43 = FACE_OUTER_BOUND ( 'NONE', #217, .T. ) ;
#44 = APPROVAL ( #5, 'UNSPECIFIED' ) ;
#45 = CARTESIAN_POINT ( 'NONE',  ( -0.5000000000000006661, 0.000000000000000000, 10.00000000000000000 ) ) ;
#46 = DIRECTION ( 'NONE',  ( 0.000000000000000000, 0.000000000000000000, 1.000000000000000000 ) ) ;
#47 = AXIS2_PLACEMENT_3D ( 'NONE', #170, #271, #119 ) ;
#48 = ORIENTED_EDGE ( 'NONE', *, *, #197, .F. ) ;
#49 = EDGE_CURVE ( 'NONE', #219, #136, #73, .T. ) ;
#50 = CARTESIAN_POINT ( 'NONE',  ( 0.5000000000000013323, 0.000000000000000000, 10.00000000000000000 ) ) ;
#51 = AXIS2_PLACEMENT_3D ( 'NONE', #151, #74, #55 ) ;
#52 = APPROVAL_PERSON_ORGANIZATION ( #289, #115, #61 ) ;
#53 = DIRECTION ( 'NONE',  ( 0.000000000000000000, 0.000000000000000000, -1.000000000000000000 ) ) ;
#54 = CARTESIAN_POINT ( 'NONE',  ( -1.614212418857619014, 1.224646799147353256E-15, -10.00000000000000000 ) ) ;
#55 = DIRECTION ( 'NONE',  ( 0.000000000000000000, 0.000000000000000000, 1.000000000000000000 ) ) ;
#56 = DIRECTION ( 'NONE',  ( 0.000000000000000000, 0.000000000000000000, 1.000000000000000000 ) ) ;
#57 = DIRECTION ( 'NONE',  ( 0.000000000000000000, 0.000000000000000000, 1.000000000000000000 ) ) ;
#58 = APPROVAL_STATUS ( 'not_yet_approved' ) ;
#59 = CARTESIAN_POINT ( 'NONE',  ( -3.000000000000000000, 0.000000000000000000, 10.00000000000000000 ) ) ;
#60 = CC_DESIGN_PERSON_AND_ORGANIZATION_ASSIGNMENT ( #258, #233, ( #178 ) ) ;
#61 = APPROVAL_ROLE ( '' ) ;
#62 = EDGE_LOOP ( 'NONE', ( #265, #81, #296, #187 ) ) ;
#63 = AXIS2_PLACEMENT_3D ( 'NONE', #214, #193, #46 ) ;
#64 = AXIS2_PLACEMENT_3D ( 'NONE', #308, #177, #57 ) ;
#65 = ORIENTED_EDGE ( 'NONE', *, *, #133, .T. ) ;
#66 = CARTESIAN_POINT ( 'NONE',  ( -0.5000000000000006661, 10.00000000000000000, 0.000000000000000000 ) ) ;
#67 = LOCAL_TIME ( 10, 33, 56.00000000000000000, #229 ) ;
#68 = DIRECTION ( 'NONE',  ( -1.000000000000000000, -0.000000000000000000, -0.000000000000000000 ) ) ;
#69 = AXIS2_PLACEMENT_3D ( 'NONE', #145, #68, #146 ) ;
#70 = ORIENTED_EDGE ( 'NONE', *, *, #284, .F. ) ;
#71 = CC_DESIGN_PERSON_AND_ORGANIZATION_ASSIGNMENT ( #202, #184, ( #224 ) ) ;
#72 = CARTESIAN_POINT ( 'NONE',  ( 2.999999999999999112, 0.000000000000000000, 0.000000000000000000 ) ) ;
#73 = CIRCLE ( 'NONE', #107, 12.69999999999999929 ) ;
#74 = DIRECTION ( 'NONE',  ( -1.000000000000000000, -0.000000000000000000, -0.000000000000000000 ) ) ;
#75 = DIRECTION ( 'NONE',  ( 1.000000000000000000, 0.000000000000000000, 0.000000000000000000 ) ) ;
#76 = VECTOR ( 'NONE', #127, 1000.000000000000000 ) ;
#77 = CYLINDRICAL_SURFACE ( 'NONE', #283, 12.69999999999999929 ) ;
#78 = CALENDAR_DATE ( 2021, 5, 1 ) ;
#79 = DIRECTION ( 'NONE',  ( -1.000000000000000000, -0.000000000000000000, -0.000000000000000000 ) ) ;
#80 = COORDINATED_UNIVERSAL_TIME_OFFSET ( 8, 0, .AHEAD. ) ;
#81 = ORIENTED_EDGE ( 'NONE', *, *, #320, .T. ) ;
#82 = APPLICATION_PROTOCOL_DEFINITION ( 'international standard', 'config_control_design', 1994, #220 ) ;
#83 = ORIENTED_EDGE ( 'NONE', *, *, #147, .T. ) ;
#84 = CC_DESIGN_SECURITY_CLASSIFICATION ( #224, ( #334 ) ) ;
#85 = CARTESIAN_POINT ( 'NONE',  ( -0.5000000000000006661, 1.224646799147353256E-15, -10.00000000000000000 ) ) ;
#86 = ADVANCED_FACE ( 'NONE', ( #89 ), #172, .F. ) ;
#87 = CYLINDRICAL_SURFACE ( 'NONE', #47, 10.00000000000000000 ) ;
#88 = DIRECTION ( 'NONE',  ( 0.000000000000000000, 0.000000000000000000, 1.000000000000000000 ) ) ;
#89 = FACE_OUTER_BOUND ( 'NONE', #14, .T. ) ;
#90 = CARTESIAN_POINT ( 'NONE',  ( 2.999999999999999112, 0.000000000000000000, 10.00000000000000000 ) ) ;
#91 = ADVANCED_FACE ( 'NONE', ( #173 ), #240, .F. ) ;
#92 = FACE_OUTER_BOUND ( 'NONE', #246, .T. ) ;
#93 = CC_DESIGN_APPROVAL ( #115, ( #108 ) ) ;
#94 = CARTESIAN_POINT ( 'NONE',  ( -0.5000000000000006661, 0.000000000000000000, 0.000000000000000000 ) ) ;
#95 = CARTESIAN_POINT ( 'NONE',  ( 2.999999999999999112, 0.000000000000000000, 0.000000000000000000 ) ) ;
#96 = DIRECTION ( 'NONE',  ( 0.000000000000000000, 0.000000000000000000, -1.000000000000000000 ) ) ;
#97 = PERSON ( 'UNSPECIFIED', 'UNSPECIFIED', 'UNSPECIFIED', ('UNSPECIFIED'), ('UNSPECIFIED'), ('UNSPECIFIED') ) ;
#98 = DIRECTION ( 'NONE',  ( 0.000000000000000000, 0.000000000000000000, 1.000000000000000000 ) ) ;
#99 = APPROVAL_DATE_TIME ( #313, #44 ) ;
#100 = CIRCLE ( 'NONE', #17, 10.00000000000000000 ) ;
#101 = DIRECTION ( 'NONE',  ( -1.000000000000000000, -0.000000000000000000, -0.000000000000000000 ) ) ;
#102 = APPROVAL_ROLE ( '' ) ;
#103 = AXIS2_PLACEMENT_3D ( 'NONE', #95, #25, #126 ) ;
#104 = EDGE_CURVE ( 'NONE', #116, #136, #191, .T. ) ;
#105 =( NAMED_UNIT ( * ) PLANE_ANGLE_UNIT ( ) SI_UNIT ( $, .RADIAN. ) );
#106 = SECURITY_CLASSIFICATION_LEVEL ( 'unclassified' ) ;
#107 = AXIS2_PLACEMENT_3D ( 'NONE', #247, #270, #88 ) ;
#108 = PRODUCT_DEFINITION ( 'UNKNOWN', '', #334, #239 ) ;
#109 = ORIENTED_EDGE ( 'NONE', *, *, #113, .F. ) ;
#110 = COORDINATED_UNIVERSAL_TIME_OFFSET ( 8, 0, .AHEAD. ) ;
#111 = VERTEX_POINT ( 'NONE', #45 ) ;
#112 = ORIENTED_EDGE ( 'NONE', *, *, #133, .F. ) ;
#113 = EDGE_CURVE ( 'NONE', #114, #16, #273, .T. ) ;
#114 = VERTEX_POINT ( 'NONE', #90 ) ;
#115 = APPROVAL ( #132, 'UNSPECIFIED' ) ;
#116 = VERTEX_POINT ( 'NONE', #118 ) ;
#117 = AXIS2_PLACEMENT_3D ( 'NONE', #226, #155, #203 ) ;
#118 = CARTESIAN_POINT ( 'NONE',  ( 3.000000000000000000, 0.000000000000000000, 12.69999999999999929 ) ) ;
#119 = DIRECTION ( 'NONE',  ( 0.000000000000000000, 0.000000000000000000, 1.000000000000000000 ) ) ;
#120 = DIRECTION ( 'NONE',  ( -1.000000000000000000, 0.000000000000000000, -0.000000000000000000 ) ) ;
#121 = AXIS2_PLACEMENT_3D ( 'NONE', #24, #176, #53 ) ;
#122 = LOCAL_TIME ( 10, 33, 56.00000000000000000, #80 ) ;
#123 = EDGE_LOOP ( 'NONE', ( #196, #235, #138, #267 ) ) ;
#124 = ADVANCED_FACE ( 'NONE', ( #324 ), #87, .F. ) ;
#125 = CARTESIAN_POINT ( 'NONE',  ( -3.000000000000000000, 0.000000000000000000, 12.69999999999999929 ) ) ;
#126 = DIRECTION ( 'NONE',  ( 0.000000000000000000, 0.000000000000000000, 1.000000000000000000 ) ) ;
#127 = DIRECTION ( 'NONE',  ( -1.000000000000000000, -0.000000000000000000, -0.000000000000000000 ) ) ;
#128 = CARTESIAN_POINT ( 'NONE',  ( -0.5000000000000006661, 0.000000000000000000, 0.000000000000000000 ) ) ;
#129 = DIRECTION ( 'NONE',  ( -1.000000000000000000, -0.000000000000000000, -0.000000000000000000 ) ) ;
#130 =( LENGTH_UNIT ( ) NAMED_UNIT ( * ) SI_UNIT ( .MILLI., .METRE. ) );
#131 = CARTESIAN_POINT ( 'NONE',  ( -1.614212418857619014, 0.000000000000000000, 0.000000000000000000 ) ) ;
#132 = APPROVAL_STATUS ( 'not_yet_approved' ) ;
#133 = EDGE_CURVE ( 'NONE', #299, #327, #232, .T. ) ;
#134 = VECTOR ( 'NONE', #306, 1000.000000000000000 ) ;
#135 = PERSON_AND_ORGANIZATION ( #97, #243 ) ;
#136 = VERTEX_POINT ( 'NONE', #125 ) ;
#137 = APPLICATION_PROTOCOL_DEFINITION ( 'international standard', 'config_control_design', 1994, #291 ) ;
#138 = ORIENTED_EDGE ( 'NONE', *, *, #113, .T. ) ;
#139 = COORDINATED_UNIVERSAL_TIME_OFFSET ( 8, 0, .AHEAD. ) ;
#140 = VERTEX_POINT ( 'NONE', #198 ) ;
#141 = CARTESIAN_POINT ( 'NONE',  ( 0.000000000000000000, 0.000000000000000000, 0.000000000000000000 ) ) ;
#142 = AXIS2_PLACEMENT_3D ( 'NONE', #72, #225, #302 ) ;
#143 = CC_DESIGN_APPROVAL ( #44, ( #334 ) ) ;
#144 = ORIENTED_EDGE ( 'NONE', *, *, #9, .T. ) ;
#145 = CARTESIAN_POINT ( 'NONE',  ( 3.000000000000000000, 0.000000000000000000, 0.000000000000000000 ) ) ;
#146 = DIRECTION ( 'NONE',  ( 0.000000000000000000, 0.000000000000000000, 1.000000000000000000 ) ) ;
#147 = EDGE_CURVE ( 'NONE', #140, #16, #300, .T. ) ;
#148 = CARTESIAN_POINT ( 'NONE',  ( -1.614212418857619014, 0.000000000000000000, 12.69999999999999929 ) ) ;
#149 = EDGE_LOOP ( 'NONE', ( #238, #112 ) ) ;
#150 = ORIENTED_EDGE ( 'NONE', *, *, #245, .T. ) ;
#151 = CARTESIAN_POINT ( 'NONE',  ( 3.000000000000000000, 0.000000000000000000, 0.000000000000000000 ) ) ;
#152 = ADVANCED_FACE ( 'NONE', ( #92 ), #77, .T. ) ;
#153 = CARTESIAN_POINT ( 'NONE',  ( 2.999999999999999112, 1.224646799147353256E-15, -10.00000000000000000 ) ) ;
#154 = DIRECTION ( 'NONE',  ( 0.000000000000000000, 0.000000000000000000, -1.000000000000000000 ) ) ;
#155 = DIRECTION ( 'NONE',  ( -1.000000000000000000, -0.000000000000000000, -0.000000000000000000 ) ) ;
#156 = DIRECTION ( 'NONE',  ( 0.000000000000000000, 0.000000000000000000, 1.000000000000000000 ) ) ;
#157 = AXIS2_PLACEMENT_3D ( 'NONE', #278, #129, #98 ) ;
#158 = FACE_OUTER_BOUND ( 'NONE', #231, .T. ) ;
#159 = FACE_OUTER_BOUND ( 'NONE', #39, .T. ) ;
#160 = DATE_AND_TIME ( #78, #67 ) ;
#161 = ORIENTED_EDGE ( 'NONE', *, *, #185, .T. ) ;
#162 = DATE_TIME_ROLE ( 'creation_date' ) ;
#163 = EDGE_CURVE ( 'NONE', #215, #116, #194, .T. ) ;
#164 = AXIS2_PLACEMENT_3D ( 'NONE', #128, #75, #96 ) ;
#165 = UNCERTAINTY_MEASURE_WITH_UNIT (LENGTH_MEASURE( 1.000000000000000082E-05 ), #130, 'distance_accuracy_value', 'NONE');
#166 = VECTOR ( 'NONE', #221, 1000.000000000000000 ) ;
#167 = EDGE_LOOP ( 'NONE', ( #42, #192 ) ) ;
#168 = ORIENTED_EDGE ( 'NONE', *, *, #279, .T. ) ;
#169 = EDGE_CURVE ( 'NONE', #327, #299, #218, .T. ) ;
#170 = CARTESIAN_POINT ( 'NONE',  ( -1.614212418857619014, 0.000000000000000000, 0.000000000000000000 ) ) ;
#171 = LOCAL_TIME ( 10, 33, 56.00000000000000000, #37 ) ;
#172 = PLANE ( 'NONE',  #15 ) ;
#173 = FACE_OUTER_BOUND ( 'NONE', #62, .T. ) ;
#174 = FACE_BOUND ( 'NONE', #149, .T. ) ;
#175 = AXIS2_PLACEMENT_3D ( 'NONE', #200, #79, #3 ) ;
#176 = DIRECTION ( 'NONE',  ( 1.000000000000000000, 0.000000000000000000, 0.000000000000000000 ) ) ;
#177 = DIRECTION ( 'NONE',  ( -1.000000000000000000, -0.000000000000000000, -0.000000000000000000 ) ) ;
#178 = PRODUCT ( 'QM-AAHWP-20-900-2100-M', 'QM-AAHWP-20-900-2100-M', '', ( #33 ) ) ;
#179 = FACE_OUTER_BOUND ( 'NONE', #189, .T. ) ;
#180 = CC_DESIGN_APPROVAL ( #22, ( #224 ) ) ;
#181 = FACE_OUTER_BOUND ( 'NONE', #123, .T. ) ;
#182 = LINE ( 'NONE', #281, #166 ) ;
#183 = DIRECTION ( 'NONE',  ( 0.000000000000000000, 0.000000000000000000, 1.000000000000000000 ) ) ;
#184 = PERSON_AND_ORGANIZATION_ROLE ( 'classification_officer' ) ;
#185 = EDGE_CURVE ( 'NONE', #13, #299, #182, .T. ) ;
#186 = PERSON_AND_ORGANIZATION ( #97, #243 ) ;
#187 = ORIENTED_EDGE ( 'NONE', *, *, #169, .T. ) ;
#188 = PERSON_AND_ORGANIZATION ( #97, #243 ) ;
#189 = EDGE_LOOP ( 'NONE', ( #295, #293 ) ) ;
#190 = EDGE_LOOP ( 'NONE', ( #168, #161, #65, #290 ) ) ;
#191 = LINE ( 'NONE', #148, #261 ) ;
#192 = ORIENTED_EDGE ( 'NONE', *, *, #49, .T. ) ;
#193 = DIRECTION ( 'NONE',  ( -1.000000000000000000, -0.000000000000000000, -0.000000000000000000 ) ) ;
#194 = CIRCLE ( 'NONE', #51, 12.69999999999999929 ) ;
#195 = CC_DESIGN_PERSON_AND_ORGANIZATION_ASSIGNMENT ( #188, #230, ( #334 ) ) ;
#196 = ORIENTED_EDGE ( 'NONE', *, *, #254, .F. ) ;
#197 = EDGE_CURVE ( 'NONE', #16, #140, #100, .T. ) ;
#198 = CARTESIAN_POINT ( 'NONE',  ( 0.5000000000000013323, 1.224646799147353256E-15, -10.00000000000000000 ) ) ;
#199 = LINE ( 'NONE', #256, #266 ) ;
#200 = CARTESIAN_POINT ( 'NONE',  ( -1.614212418857619014, 0.000000000000000000, 0.000000000000000000 ) ) ;
#201 = DIRECTION ( 'NONE',  ( -1.000000000000000000, -0.000000000000000000, -0.000000000000000000 ) ) ;
#202 = PERSON_AND_ORGANIZATION ( #97, #243 ) ;
#203 = DIRECTION ( 'NONE',  ( 0.000000000000000000, 0.000000000000000000, 1.000000000000000000 ) ) ;
#204 = CIRCLE ( 'NONE', #142, 10.00000000000000000 ) ;
#205 = PERSON_AND_ORGANIZATION ( #97, #243 ) ;
#206 = ADVANCED_FACE ( 'NONE', ( #159 ), #4, .F. ) ;
#207 = APPROVAL_ROLE ( '' ) ;
#208 = DATE_AND_TIME ( #10, #171 ) ;
#209 = ADVANCED_BREP_SHAPE_REPRESENTATION ( 'QM-AAHWP-20-900-2100-M', ( #222, #28 ), #41 ) ;
#210 = LOCAL_TIME ( 10, 33, 56.00000000000000000, #110 ) ;
#211 = CALENDAR_DATE ( 2021, 5, 1 ) ;
#212 = ORIENTED_EDGE ( 'NONE', *, *, #147, .F. ) ;
#213 = ORIENTED_EDGE ( 'NONE', *, *, #104, .T. ) ;
#214 = CARTESIAN_POINT ( 'NONE',  ( -1.614212418857619014, 0.000000000000000000, 0.000000000000000000 ) ) ;
#215 = VERTEX_POINT ( 'NONE', #330 ) ;
#216 = CARTESIAN_POINT ( 'NONE',  ( -3.000000000000000000, 0.000000000000000000, 0.000000000000000000 ) ) ;
#217 = EDGE_LOOP ( 'NONE', ( #315, #260 ) ) ;
#218 = CIRCLE ( 'NONE', #64, 10.00000000000000000 ) ;
#219 = VERTEX_POINT ( 'NONE', #332 ) ;
#220 = APPLICATION_CONTEXT ( 'configuration controlled 3d designs of mechanical parts and assemblies' ) ;
#221 = DIRECTION ( 'NONE',  ( -1.000000000000000000, -0.000000000000000000, -0.000000000000000000 ) ) ;
#222 = MANIFOLD_SOLID_BREP ( 'Ðý×', #268 ) ;
#223 = DIRECTION ( 'NONE',  ( 1.000000000000000000, 0.000000000000000000, 0.000000000000000000 ) ) ;
#224 = SECURITY_CLASSIFICATION ( '', '', #106 ) ;
#225 = DIRECTION ( 'NONE',  ( -1.000000000000000000, -0.000000000000000000, -0.000000000000000000 ) ) ;
#226 = CARTESIAN_POINT ( 'NONE',  ( -1.614212418857619014, 0.000000000000000000, 0.000000000000000000 ) ) ;
#227 = PRODUCT_DEFINITION_SHAPE ( 'NONE', 'NONE',  #108 ) ;
#228 = CARTESIAN_POINT ( 'NONE',  ( 0.5000000000000013323, 0.000000000000000000, 0.000000000000000000 ) ) ;
#229 = COORDINATED_UNIVERSAL_TIME_OFFSET ( 8, 0, .AHEAD. ) ;
#230 = PERSON_AND_ORGANIZATION_ROLE ( 'design_supplier' ) ;
#231 = EDGE_LOOP ( 'NONE', ( #70, #11, #213, #318 ) ) ;
#232 = CIRCLE ( 'NONE', #322, 10.00000000000000000 ) ;
#233 = PERSON_AND_ORGANIZATION_ROLE ( 'design_owner' ) ;
#234 = PERSON_AND_ORGANIZATION ( #97, #243 ) ;
#235 = ORIENTED_EDGE ( 'NONE', *, *, #245, .F. ) ;
#236 = CALENDAR_DATE ( 2021, 5, 1 ) ;
#237 = ORIENTED_EDGE ( 'NONE', *, *, #284, .T. ) ;
#238 = ORIENTED_EDGE ( 'NONE', *, *, #169, .F. ) ;
#239 = DESIGN_CONTEXT ( 'detailed design', #291, 'design' ) ;
#240 = CYLINDRICAL_SURFACE ( 'NONE', #63, 10.00000000000000000 ) ;
#241 = ADVANCED_FACE ( 'NONE', ( #179, #250 ), #32, .F. ) ;
#242 = CARTESIAN_POINT ( 'NONE',  ( -1.614212418857619014, 0.000000000000000000, 10.00000000000000000 ) ) ;
#243 = ORGANIZATION ( 'UNSPECIFIED', 'UNSPECIFIED', '' ) ;
#244 = DIRECTION ( 'NONE',  ( -1.000000000000000000, -0.000000000000000000, -0.000000000000000000 ) ) ;
#245 = EDGE_CURVE ( 'NONE', #114, #263, #204, .T. ) ;
#246 = EDGE_LOOP ( 'NONE', ( #144, #237, #287, #314 ) ) ;
#247 = CARTESIAN_POINT ( 'NONE',  ( -3.000000000000000000, 0.000000000000000000, 0.000000000000000000 ) ) ;
#248 = ADVANCED_FACE ( 'NONE', ( #174, #255 ), #30, .F. ) ;
#249 = CIRCLE ( 'NONE', #103, 10.00000000000000000 ) ;
#250 = FACE_BOUND ( 'NONE', #297, .T. ) ;
#251 = PRODUCT_RELATED_PRODUCT_CATEGORY ( 'detail', '', ( #178 ) ) ;
#252 = CARTESIAN_POINT ( 'NONE',  ( 2.999999999999999556, 12.69999999999999929, 0.000000000000000000 ) ) ;
#253 = LINE ( 'NONE', #27, #76 ) ;
#254 = EDGE_CURVE ( 'NONE', #263, #140, #277, .T. ) ;
#255 = FACE_OUTER_BOUND ( 'NONE', #167, .T. ) ;
#256 = CARTESIAN_POINT ( 'NONE',  ( -1.614212418857619014, 0.000000000000000000, 10.00000000000000000 ) ) ;
#257 = DIRECTION ( 'NONE',  ( 0.000000000000000000, 0.000000000000000000, 1.000000000000000000 ) ) ;
#258 = PERSON_AND_ORGANIZATION ( #97, #243 ) ;
#259 = CYLINDRICAL_SURFACE ( 'NONE', #117, 10.00000000000000000 ) ;
#260 = ORIENTED_EDGE ( 'NONE', *, *, #320, .F. ) ;
#261 = VECTOR ( 'NONE', #19, 1000.000000000000000 ) ;
#262 = DATE_AND_TIME ( #12, #122 ) ;
#263 = VERTEX_POINT ( 'NONE', #153 ) ;
#264 = DIRECTION ( 'NONE',  ( 1.000000000000000000, 0.000000000000000000, 0.000000000000000000 ) ) ;
#265 = ORIENTED_EDGE ( 'NONE', *, *, #185, .F. ) ;
#266 = VECTOR ( 'NONE', #307, 1000.000000000000000 ) ;
#267 = ORIENTED_EDGE ( 'NONE', *, *, #197, .T. ) ;
#268 = CLOSED_SHELL ( 'NONE', ( #152, #124, #206, #86, #331, #91, #248, #323, #241, #7 ) ) ;
#269 = ORIENTED_EDGE ( 'NONE', *, *, #254, .T. ) ;
#270 = DIRECTION ( 'NONE',  ( -1.000000000000000000, -0.000000000000000000, -0.000000000000000000 ) ) ;
#271 = DIRECTION ( 'NONE',  ( -1.000000000000000000, -0.000000000000000000, -0.000000000000000000 ) ) ;
#272 = DIRECTION ( 'NONE',  ( 1.000000000000000000, 0.000000000000000000, 0.000000000000000000 ) ) ;
#273 = LINE ( 'NONE', #242, #328 ) ;
#274 = EDGE_CURVE ( 'NONE', #263, #114, #249, .T. ) ;
#275 = DIRECTION ( 'NONE',  ( -1.000000000000000000, 0.000000000000000000, -0.000000000000000000 ) ) ;
#276 = AXIS2_PLACEMENT_3D ( 'NONE', #305, #101, #257 ) ;
#277 = LINE ( 'NONE', #54, #134 ) ;
#278 = CARTESIAN_POINT ( 'NONE',  ( 0.5000000000000013323, 0.000000000000000000, 0.000000000000000000 ) ) ;
#279 = EDGE_CURVE ( 'NONE', #111, #13, #298, .T. ) ;
#280 = DIRECTION ( 'NONE',  ( -1.000000000000000000, -0.000000000000000000, -0.000000000000000000 ) ) ;
#281 = CARTESIAN_POINT ( 'NONE',  ( -1.614212418857619014, 1.224646799147353256E-15, -10.00000000000000000 ) ) ;
#282 = DATE_TIME_ROLE ( 'classification_date' ) ;
#283 = AXIS2_PLACEMENT_3D ( 'NONE', #131, #280, #56 ) ;
#284 = EDGE_CURVE ( 'NONE', #215, #219, #253, .T. ) ;
#285 = SHAPE_DEFINITION_REPRESENTATION ( #227, #209 ) ;
#286 = APPROVAL_DATE_TIME ( #262, #22 ) ;
#287 = ORIENTED_EDGE ( 'NONE', *, *, #329, .F. ) ;
#288 = LOCAL_TIME ( 10, 33, 56.00000000000000000, #139 ) ;
#289 = PERSON_AND_ORGANIZATION ( #97, #243 ) ;
#290 = ORIENTED_EDGE ( 'NONE', *, *, #303, .F. ) ;
#291 = APPLICATION_CONTEXT ( 'configuration controlled 3d designs of mechanical parts and assemblies' ) ;
#292 = PERSON_AND_ORGANIZATION_ROLE ( 'creator' ) ;
#293 = ORIENTED_EDGE ( 'NONE', *, *, #163, .F. ) ;
#294 = CC_DESIGN_PERSON_AND_ORGANIZATION_ASSIGNMENT ( #186, #35, ( #108 ) ) ;
#295 = ORIENTED_EDGE ( 'NONE', *, *, #9, .F. ) ;
#296 = ORIENTED_EDGE ( 'NONE', *, *, #303, .T. ) ;
#297 = EDGE_LOOP ( 'NONE', ( #150, #38 ) ) ;
#298 = CIRCLE ( 'NONE', #40, 10.00000000000000000 ) ;
#299 = VERTEX_POINT ( 'NONE', #335 ) ;
#300 = CIRCLE ( 'NONE', #157, 10.00000000000000000 ) ;
#301 = CIRCLE ( 'NONE', #69, 12.69999999999999929 ) ;
#302 = DIRECTION ( 'NONE',  ( 0.000000000000000000, 0.000000000000000000, 1.000000000000000000 ) ) ;
#303 = EDGE_CURVE ( 'NONE', #111, #327, #199, .T. ) ;
#304 = DIRECTION ( 'NONE',  ( -0.000000000000000000, 0.000000000000000000, 1.000000000000000000 ) ) ;
#305 = CARTESIAN_POINT ( 'NONE',  ( -1.614212418857619014, 0.000000000000000000, 0.000000000000000000 ) ) ;
#306 = DIRECTION ( 'NONE',  ( -1.000000000000000000, -0.000000000000000000, -0.000000000000000000 ) ) ;
#307 = DIRECTION ( 'NONE',  ( -1.000000000000000000, -0.000000000000000000, -0.000000000000000000 ) ) ;
#308 = CARTESIAN_POINT ( 'NONE',  ( -3.000000000000000000, 0.000000000000000000, 0.000000000000000000 ) ) ;
#309 = DATE_AND_TIME ( #236, #288 ) ;
#310 = CIRCLE ( 'NONE', #164, 10.00000000000000000 ) ;
#311 =( NAMED_UNIT ( * ) SI_UNIT ( $, .STERADIAN. ) SOLID_ANGLE_UNIT ( ) );
#312 = CC_DESIGN_PERSON_AND_ORGANIZATION_ASSIGNMENT ( #205, #292, ( #334 ) ) ;
#313 = DATE_AND_TIME ( #211, #210 ) ;
#314 = ORIENTED_EDGE ( 'NONE', *, *, #104, .F. ) ;
#315 = ORIENTED_EDGE ( 'NONE', *, *, #279, .F. ) ;
#316 = ORIENTED_EDGE ( 'NONE', *, *, #274, .F. ) ;
#317 = AXIS2_PLACEMENT_3D ( 'NONE', #66, #272, #20 ) ;
#318 = ORIENTED_EDGE ( 'NONE', *, *, #49, .F. ) ;
#319 = CC_DESIGN_DATE_AND_TIME_ASSIGNMENT ( #160, #282, ( #224 ) ) ;
#320 = EDGE_CURVE ( 'NONE', #13, #111, #310, .T. ) ;
#321 = PLANE ( 'NONE',  #317 ) ;
#322 = AXIS2_PLACEMENT_3D ( 'NONE', #216, #325, #2 ) ;
#323 = ADVANCED_FACE ( 'NONE', ( #158 ), #1, .T. ) ;
#324 = FACE_OUTER_BOUND ( 'NONE', #190, .T. ) ;
#325 = DIRECTION ( 'NONE',  ( -1.000000000000000000, -0.000000000000000000, -0.000000000000000000 ) ) ;
#326 = APPROVAL_PERSON_ORGANIZATION ( #234, #22, #207 ) ;
#327 = VERTEX_POINT ( 'NONE', #59 ) ;
#328 = VECTOR ( 'NONE', #244, 1000.000000000000000 ) ;
#329 = EDGE_CURVE ( 'NONE', #136, #219, #6, .T. ) ;
#330 = CARTESIAN_POINT ( 'NONE',  ( 3.000000000000000000, 1.555301434917138433E-15, -12.69999999999999929 ) ) ;
#331 = ADVANCED_FACE ( 'NONE', ( #181 ), #259, .F. ) ;
#332 = CARTESIAN_POINT ( 'NONE',  ( -3.000000000000000000, 1.555301434917138433E-15, -12.69999999999999929 ) ) ;
#333 = APPROVAL_PERSON_ORGANIZATION ( #135, #44, #102 ) ;
#334 = PRODUCT_DEFINITION_FORMATION_WITH_SPECIFIED_SOURCE ( 'ANY', '', #178, .NOT_KNOWN. ) ;
#335 = CARTESIAN_POINT ( 'NONE',  ( -3.000000000000000000, 1.224646799147353256E-15, -10.00000000000000000 ) ) ;
ENDSEC;
END-ISO-10303-21;
